Загрузка...

Слот - От Заката До Рассвета аккорды mp3 320kbps

Слот - От Заката До Рассвета Урок под гитару в качестве hd 720 смотреть бесплатно

Рейтинг: 0

Гуппа: Слот

Название песни: От Заката До Рассвета (аккорды)

Продолжительность mp3: 03:09

Добавлен: 2015-09-04

Текст просмотрен: 336

Скачать

Другие песни исполнителя Слот
Текст песни:

Вступление:

E||----------------------|------------------------|-----------------4-----|
B||--5-------4-----------|--2-------0-------------|--5-------4------------|
G||--6-------------------|------1-----------2-----|--6-----------------6--|
D||------6---------------|---------------2-----2--|------6----------------|
A||--4-------2-----------|--0-------0-------------|--4-------2------------|
E||----------------------|------------------------|-----------------------|



------------------------|----------------------|------------------------|
------------------------|--5-------4-----------|--2-------0-------------|
--_-------------------4-|--6-------------------|------1-----------2-----|
--------------------4---|------6---------------|---------------2-----2--|
--0-------------2--4---|--4-------2-----------|--0-------0-------------|
------------------------|----------------------|------------------------|



-----------------2----|--2-----------------||
--5-------4-----------|--------------------||
--6-------------------|--------------------||
------6---------------|--------------------||
--4-------2-----------|--0-----------------||
----------------------|--------------------||



С#m B A C#m
По частям просыпаются сны
B A
Снегом через край
С#m B A
По слогам рвётся шёпотом изнутри
B
Не забывай

C#m G#m
От заката до рассвета
B A
Вместе где-то в объятиях сна
C#m G#m A
А с разбега, открывая глаза
B C#m
Я просыпаюсь одна

С#m B
Птицы крик
A C#m
Падая, врывается в сон
B A
Бьётся взаперти
С#m B
На раз, два, три
A
Лови, я здесь со всех сторон
B
Или отпусти


C#m G#m
От заката до рассвета
B A
Вместе где-то в объятиях сна
C#m G#m A
А с разбега, открывая глаза
B C#m
Я просыпаюсь одна

Завтра, как вчера
Завтрак и дела
Волной распугают эти сны
Где ты и я
Не знаем что с утра
Дождём рассыпемся где-то

От заката до рассвета
Вместе где-то в объятиях сна
А с разбега, открывая глаза
Я просыпаюсь одна,
Опять просыпаюсь одна,
Снова одна.

Видео
Слот - От Заката До Рассвета (Урок под гитару)

Комментарии (0)

Добавить комментарий